Fern
Country: Iceland
Registered: September 16, 2021
Last post: February 11, 2022 at 7:29 AM
Posts: 232
1 2 3 4 5

KEKW

posted about a year ago

Still mad that they got a map off SEN?

posted about a year ago

13-0-------13-013-0----------------------------------13-013-013-0
13-0-----13-0------13-0---------------------------- 13-0---------13-0
13-0------------------13-0----------------------------13-0------------13-0
13-0-----------13-0-13-0------13-013-0------13-0-------------13-0
13-0-------------------13-0------13-013-0------13-0-------------13-0
13-0-------------------13-0---------------------------13-0-----------13-0
13-0-----13-0-------13-0----------------------------13-0---------13-0
13-0---------13-013-0--------------------------------13-013-013-0

posted about a year ago

13-0-------13-013-0----------------------------------13-013-013-0
13-0-----13-0------13-0---------------------------- 13-0---------13-0
13-0------------------13-0----------------------------13-0------------13-0
13-0-----------13-0-13-0------13-013-0------13-0-------------13-0
13-0-------------------13-0------13-013-0------13-0-------------13-0
13-0-------------------13-0---------------------------13-0-----------13-0
13-0-----13-0-------13-0----------------------------13-0---------13-0
13-0---------13-013-0--------------------------------13-013-013-0

posted about a year ago

Wow so funny bro

posted about a year ago

AND DON'T 😎 FORGET 😀 TO LIKE 👍 AND SHARE ↪️

posted about a year ago

CUZ I HECKING LOVE TENZ BatChest

posted about a year ago

#1TAPARMY #SUPREMACYOVERZOMBSNATION #CHAMPIONSINTHEBAG

posted about a year ago

VS 2-0 FS
VKS 1-2 CR
C9B 2-0 FNC

posted about a year ago

#1TAPARMY #SUPREMACYOVERZOMBSNATION #CHAMPIONSINTHEBAG

posted about a year ago

valorant so dead they dont even make enough money to finance the prize monies from the stuff they are selling the whole year so they have to bring out a special cringe bundle to finance the tournament! why would riot games give half the income from the champions bundle to the players who attend the tournament? as if they dont get paid good enough... is it maybe a bait to not make the players quit val after champions because valarante is a boring game that eats your whole year just for lame 2 qualifier tournaments and a champions? Now i hope riot games only way to keep this trash game alive is giving out money like pubg have to do lmao!

posted about a year ago

ok

posted about a year ago

Bye

posted about a year ago

bruh

posted about a year ago

This does not change the fact that in Antarctica there are 21 million penguins and in Malta there are 502,653 inhabitants. So if the penguins decide to invade Malta, each Maltese will have to fight 42 penguins.

posted about a year ago

Gold 2 strikes again

posted about a year ago

😉✅👌

posted about a year ago

Touch grass

posted about a year ago

Crazy Raccoons

posted about a year ago

#BONKNATION

posted about a year ago

Never gonna give you up

posted about a year ago

They will switch to main channel after APAC ends

posted about a year ago

NOOOO

posted about a year ago

Cringe

posted about a year ago

Bonkar saved all his strength for the finals

posted about a year ago

Bonkar

posted about a year ago

Ratio

posted about a year ago

Sadge :(

posted about a year ago

Source?

posted about a year ago

Hirandas 'Hiko' Kumar is a professional Electrical Sports player for 100Tukkas best known for cosplaying Ram with arrow and bow and baiting his teammates to get in a clutch situation.

posted about a year ago

Correct this ratio

posted about a year ago

Paper choke

posted about a year ago

gg

posted about a year ago

curse broken

posted about a year ago

Longest ot inc?

posted about a year ago

nAts duhhh

posted about a year ago

MonkaW

posted about a year ago

Buy Gambit

posted about a year ago

Reverse sweep inc

posted about a year ago

13-0-------13-013-0----------------------------------13-013-013-0
13-0-----13-0------13-0---------------------------- 13-0---------13-0
13-0------------------13-0----------------------------13-0------------13-0
13-0-----------13-0-13-0------13-013-0------13-0-------------13-0
13-0-------------------13-0------13-013-0------13-0-------------13-0
13-0-------------------13-0---------------------------13-0-----------13-0
13-0-----13-0-------13-0----------------------------13-0---------13-0
13-0---------13-013-0--------------------------------13-013-013-0

posted about a year ago

13-0-------13-013-0----------------------------------13-013-013-0
13-0-----13-0------13-0---------------------------- 13-0---------13-0
13-0------------------13-0----------------------------13-0------------13-0
13-0-----------13-0-13-0------13-013-0------13-0-------------13-0
13-0-------------------13-0------13-013-0------13-0-------------13-0
13-0-------------------13-0---------------------------13-0-----------13-0
13-0-----13-0-------13-0----------------------------13-0---------13-0
13-0---------13-013-0--------------------------------13-013-013-0

posted about a year ago

13-0-------13-013-0----------------------------------13-013-013-0
13-0-----13-0------13-0---------------------------- 13-0---------13-0
13-0------------------13-0----------------------------13-0------------13-0
13-0-----------13-0-13-0------13-013-0------13-0-------------13-0
13-0-------------------13-0------13-013-0------13-0-------------13-0
13-0-------------------13-0---------------------------13-0-----------13-0
13-0-----13-0-------13-0----------------------------13-0---------13-0
13-0---------13-013-0--------------------------------13-013-013-0

posted about a year ago

13-0-------13-013-0----------------------------------13-013-013-0
13-0-----13-0------13-0---------------------------- 13-0---------13-0
13-0------------------13-0----------------------------13-0------------13-0
13-0-----------13-0-13-0------13-013-0------13-0-------------13-0
13-0-------------------13-0------13-013-0------13-0-------------13-0
13-0-------------------13-0---------------------------13-0-----------13-0
13-0-----13-0-------13-0----------------------------13-0---------13-0
13-0---------13-013-0--------------------------------13-013-013-0

posted about a year ago

13-0-------13-013-0----------------------------------13-013-013-0
13-0-----13-0------13-0---------------------------- 13-0---------13-0
13-0------------------13-0----------------------------13-0------------13-0
13-0-----------13-0-13-0------13-013-0------13-0-------------13-0
13-0-------------------13-0------13-013-0------13-0-------------13-0
13-0-------------------13-0---------------------------13-0-----------13-0
13-0-----13-0-------13-0----------------------------13-0---------13-0
13-0---------13-013-0--------------------------------13-013-013-0

posted about a year ago

13-0-------13-013-0----------------------------------13-013-013-0
13-0-----13-0------13-0---------------------------- 13-0---------13-0
13-0------------------13-0----------------------------13-0------------13-0
13-0-----------13-0-13-0------13-013-0------13-0-------------13-0
13-0-------------------13-0------13-013-0------13-0-------------13-0
13-0-------------------13-0---------------------------13-0-----------13-0
13-0-----13-0-------13-0----------------------------13-0---------13-0
13-0---------13-013-0--------------------------------13-013-013-0

posted about a year ago

13-0-------13-013-0----------------------------------13-013-013-0
13-0-----13-0------13-0---------------------------- 13-0---------13-0
13-0------------------13-0----------------------------13-0------------13-0
13-0-----------13-0-13-0------13-013-0------13-0-------------13-0
13-0-------------------13-0------13-013-0------13-0-------------13-0
13-0-------------------13-0---------------------------13-0-----------13-0
13-0-----13-0-------13-0----------------------------13-0---------13-0
13-0---------13-013-0--------------------------------13-013-013-0

posted about a year ago
1 2 3 4 5